ISO-10303-21;
HEADER;
FILE_DESCRIPTION (( 'STEP AP203' ),
    '1' );
FILE_NAME ('BK7-LNPBSP-50.8-633.STEP',
    '2020-12-22T04:13:00',
    ( '' ),
    ( '' ),
    'SwSTEP 2.0',
    'SolidWorks 2020',
    '' );
FILE_SCHEMA (( 'CONFIG_CONTROL_DESIGN' ));
ENDSEC;

DATA;
#1 = ADVANCED_FACE ( 'NONE', ( #91 ), #128, .F. ) ;
#2 = CARTESIAN_POINT ( 'NONE',  ( 2.999999999999996891, 0.000000000000000000, 0.000000000000000000 ) ) ;
#3 = LOCAL_TIME ( 12, 13, 0.000000000000000000, #44 ) ;
#4 = PLANE ( 'NONE',  #136 ) ;
#5 = CIRCLE ( 'NONE', #25, 25.39999999999999858 ) ;
#6 = DIRECTION ( 'NONE',  ( -1.000000000000000000, -0.000000000000000000, -0.000000000000000000 ) ) ;
#7 = APPLICATION_PROTOCOL_DEFINITION ( 'international standard', 'config_control_design', 1994, #174 ) ;
#8 = LOCAL_TIME ( 12, 13, 0.000000000000000000, #105 ) ;
#9 = DATE_TIME_ROLE ( 'creation_date' ) ;
#10 = PRODUCT ( 'BK7-LNPBSP-50.8-633', 'BK7-LNPBSP-50.8-633', '', ( #159 ) ) ;
#11 = DATE_AND_TIME ( #163, #18 ) ;
#12 = ORIENTED_EDGE ( 'NONE', *, *, #150, .F. ) ;
#13 = CARTESIAN_POINT ( 'NONE',  ( 2.999999999999996891, 3.110602869834276865E-15, -25.39999999999999858 ) ) ;
#14 = CYLINDRICAL_SURFACE ( 'NONE', #124, 25.39999999999999858 ) ;
#15 = CARTESIAN_POINT ( 'NONE',  ( -2.743208830090071026E-15, 0.000000000000000000, 0.000000000000000000 ) ) ;
#16 = CARTESIAN_POINT ( 'NONE',  ( -1.371604415045035513E-15, 25.39999999999999858, 0.000000000000000000 ) ) ;
#17 = CC_DESIGN_PERSON_AND_ORGANIZATION_ASSIGNMENT ( #36, #153, ( #78 ) ) ;
#18 = LOCAL_TIME ( 12, 13, 0.000000000000000000, #119 ) ;
#19 = VECTOR ( 'NONE', #6, 1000.000000000000000 ) ;
#20 = APPROVAL_ROLE ( '' ) ;
#21 = DIRECTION ( 'NONE',  ( 0.000000000000000000, 0.000000000000000000, 1.000000000000000000 ) ) ;
#22 = APPROVAL_ROLE ( '' ) ;
#23 =( GEOMETRIC_REPRESENTATION_CONTEXT ( 3 ) GLOBAL_UNCERTAINTY_ASSIGNED_CONTEXT ( ( #67 ) ) GLOBAL_UNIT_ASSIGNED_CONTEXT ( ( #53, #131, #43 ) ) REPRESENTATION_CONTEXT ( 'NONE', 'WORKASPACE' ) );
#24 = APPROVAL_ROLE ( '' ) ;
#25 = AXIS2_PLACEMENT_3D ( 'NONE', #15, #130, #21 ) ;
#26 = EDGE_LOOP ( 'NONE', ( #74, #109 ) ) ;
#27 = ORIENTED_EDGE ( 'NONE', *, *, #65, .F. ) ;
#28 = CARTESIAN_POINT ( 'NONE',  ( 0.000000000000000000, 0.000000000000000000, 25.39999999999999858 ) ) ;
#29 = DIRECTION ( 'NONE',  ( -1.000000000000000000, -0.000000000000000000, -0.000000000000000000 ) ) ;
#30 = FACE_OUTER_BOUND ( 'NONE', #57, .T. ) ;
#31 = DIRECTION ( 'NONE',  ( -1.000000000000000000, -0.000000000000000000, -0.000000000000000000 ) ) ;
#32 = DIRECTION ( 'NONE',  ( 1.000000000000000000, 0.000000000000000000, 0.000000000000000000 ) ) ;
#33 = CARTESIAN_POINT ( 'NONE',  ( -2.743208830090071026E-15, 0.000000000000000000, 0.000000000000000000 ) ) ;
#34 = MANIFOLD_SOLID_BREP ( 'Ðý×', #110 ) ;
#35 = PERSON_AND_ORGANIZATION ( #100, #135 ) ;
#36 = PERSON_AND_ORGANIZATION ( #100, #135 ) ;
#37 = ORIENTED_EDGE ( 'NONE', *, *, #40, .F. ) ;
#38 = ORIENTED_EDGE ( 'NONE', *, *, #51, .F. ) ;
#39 = CARTESIAN_POINT ( 'NONE',  ( 2.999999999999996891, 0.000000000000000000, 0.000000000000000000 ) ) ;
#40 = EDGE_CURVE ( 'NONE', #113, #92, #162, .T. ) ;
#41 = CARTESIAN_POINT ( 'NONE',  ( 0.000000000000000000, 0.000000000000000000, 0.000000000000000000 ) ) ;
#42 = DIRECTION ( 'NONE',  ( 0.000000000000000000, 0.000000000000000000, -1.000000000000000000 ) ) ;
#43 =( NAMED_UNIT ( * ) SI_UNIT ( $, .STERADIAN. ) SOLID_ANGLE_UNIT ( ) );
#44 = COORDINATED_UNIVERSAL_TIME_OFFSET ( 8, 0, .AHEAD. ) ;
#45 = APPLICATION_PROTOCOL_DEFINITION ( 'international standard', 'config_control_design', 1994, #123 ) ;
#46 = APPROVAL_DATE_TIME ( #118, #107 ) ;
#47 = PRODUCT_RELATED_PRODUCT_CATEGORY ( 'detail', '', ( #10 ) ) ;
#48 = APPROVAL_STATUS ( 'not_yet_approved' ) ;
#49 = AXIS2_PLACEMENT_3D ( 'NONE', #169, #165, #168 ) ;
#50 = DIRECTION ( 'NONE',  ( -1.000000000000000000, -0.000000000000000000, -0.000000000000000000 ) ) ;
#51 = EDGE_CURVE ( 'NONE', #92, #88, #154, .T. ) ;
#52 = AXIS2_PLACEMENT_3D ( 'NONE', #63, #94, #32 ) ;
#53 =( LENGTH_UNIT ( ) NAMED_UNIT ( * ) SI_UNIT ( .MILLI., .METRE. ) );
#54 = APPROVAL ( #48, 'UNSPECIFIED' ) ;
#55 = PERSON_AND_ORGANIZATION ( #100, #135 ) ;
#56 = VERTEX_POINT ( 'NONE', #90 ) ;
#57 = EDGE_LOOP ( 'NONE', ( #60, #125, #142, #126 ) ) ;
#58 = CARTESIAN_POINT ( 'NONE',  ( 2.999999999999996891, 0.000000000000000000, 25.39999999999999858 ) ) ;
#59 = CARTESIAN_POINT ( 'NONE',  ( 0.000000000000000000, 3.110602869834276865E-15, -25.39999999999999858 ) ) ;
#60 = ORIENTED_EDGE ( 'NONE', *, *, #95, .F. ) ;
#61 = CIRCLE ( 'NONE', #101, 25.39999999999999858 ) ;
#62 = CYLINDRICAL_SURFACE ( 'NONE', #99, 25.39999999999999858 ) ;
#63 = CARTESIAN_POINT ( 'NONE',  ( 0.000000000000000000, 0.000000000000000000, 0.000000000000000000 ) ) ;
#64 = APPROVAL_DATE_TIME ( #81, #160 ) ;
#65 = EDGE_CURVE ( 'NONE', #92, #113, #104, .T. ) ;
#66 = VECTOR ( 'NONE', #112, 1000.000000000000000 ) ;
#67 = UNCERTAINTY_MEASURE_WITH_UNIT (LENGTH_MEASURE( 1.000000000000000082E-05 ), #53, 'distance_accuracy_value', 'NONE');
#68 = CALENDAR_DATE ( 2020, 22, 12 ) ;
#69 = ADVANCED_FACE ( 'NONE', ( #30 ), #14, .T. ) ;
#70 = COORDINATED_UNIVERSAL_TIME_OFFSET ( 8, 0, .AHEAD. ) ;
#71 = PRODUCT_DEFINITION ( 'UNKNOWN', '', #89, #120 ) ;
#72 = APPROVAL_PERSON_ORGANIZATION ( #55, #107, #24 ) ;
#73 = CC_DESIGN_APPROVAL ( #160, ( #71 ) ) ;
#74 = ORIENTED_EDGE ( 'NONE', *, *, #150, .T. ) ;
#75 = ORIENTED_EDGE ( 'NONE', *, *, #95, .T. ) ;
#76 = DIRECTION ( 'NONE',  ( 0.000000000000000000, 0.000000000000000000, 1.000000000000000000 ) ) ;
#77 = DIRECTION ( 'NONE',  ( 0.000000000000000000, 0.000000000000000000, 1.000000000000000000 ) ) ;
#78 = SECURITY_CLASSIFICATION ( '', '', #83 ) ;
#79 = DIRECTION ( 'NONE',  ( 0.000000000000000000, 0.000000000000000000, 1.000000000000000000 ) ) ;
#80 = ADVANCED_BREP_SHAPE_REPRESENTATION ( 'BK7-LNPBSP-50.8-633', ( #34, #52 ), #23 ) ;
#81 = DATE_AND_TIME ( #157, #172 ) ;
#82 = CC_DESIGN_SECURITY_CLASSIFICATION ( #78, ( #89 ) ) ;
#83 = SECURITY_CLASSIFICATION_LEVEL ( 'unclassified' ) ;
#84 = CC_DESIGN_DATE_AND_TIME_ASSIGNMENT ( #11, #138, ( #78 ) ) ;
#85 = CALENDAR_DATE ( 2020, 22, 12 ) ;
#86 = DATE_AND_TIME ( #151, #8 ) ;
#87 = EDGE_LOOP ( 'NONE', ( #166, #75, #12, #38 ) ) ;
#88 = VERTEX_POINT ( 'NONE', #129 ) ;
#89 = PRODUCT_DEFINITION_FORMATION_WITH_SPECIFIED_SOURCE ( 'ANY', '', #10, .NOT_KNOWN. ) ;
#90 = CARTESIAN_POINT ( 'NONE',  ( -2.743208830090071026E-15, 3.110602869834276865E-15, -25.39999999999999858 ) ) ;
#91 = FACE_OUTER_BOUND ( 'NONE', #111, .T. ) ;
#92 = VERTEX_POINT ( 'NONE', #58 ) ;
#93 = DIRECTION ( 'NONE',  ( 0.000000000000000000, 0.000000000000000000, 1.000000000000000000 ) ) ;
#94 = DIRECTION ( 'NONE',  ( 0.000000000000000000, 0.000000000000000000, 1.000000000000000000 ) ) ;
#95 = EDGE_CURVE ( 'NONE', #113, #56, #127, .T. ) ;
#96 = CC_DESIGN_APPROVAL ( #54, ( #78 ) ) ;
#97 = DIRECTION ( 'NONE',  ( -1.000000000000000000, -0.000000000000000000, -0.000000000000000000 ) ) ;
#98 = COORDINATED_UNIVERSAL_TIME_OFFSET ( 8, 0, .AHEAD. ) ;
#99 = AXIS2_PLACEMENT_3D ( 'NONE', #41, #29, #77 ) ;
#100 = PERSON ( 'UNSPECIFIED', 'UNSPECIFIED', 'UNSPECIFIED', ('UNSPECIFIED'), ('UNSPECIFIED'), ('UNSPECIFIED') ) ;
#101 = AXIS2_PLACEMENT_3D ( 'NONE', #33, #97, #148 ) ;
#102 = ADVANCED_FACE ( 'NONE', ( #171 ), #4, .F. ) ;
#103 = PERSON_AND_ORGANIZATION ( #100, #135 ) ;
#104 = CIRCLE ( 'NONE', #133, 25.39999999999999858 ) ;
#105 = COORDINATED_UNIVERSAL_TIME_OFFSET ( 8, 0, .AHEAD. ) ;
#106 = CC_DESIGN_APPROVAL ( #107, ( #89 ) ) ;
#107 = APPROVAL ( #117, 'UNSPECIFIED' ) ;
#108 = PERSON_AND_ORGANIZATION_ROLE ( 'design_supplier' ) ;
#109 = ORIENTED_EDGE ( 'NONE', *, *, #156, .T. ) ;
#110 = CLOSED_SHELL ( 'NONE', ( #140, #69, #1, #102 ) ) ;
#111 = EDGE_LOOP ( 'NONE', ( #27, #37 ) ) ;
#112 = DIRECTION ( 'NONE',  ( -1.000000000000000000, -0.000000000000000000, -0.000000000000000000 ) ) ;
#113 = VERTEX_POINT ( 'NONE', #13 ) ;
#114 = DIRECTION ( 'NONE',  ( 1.000000000000000000, 0.000000000000000000, 0.000000000000000000 ) ) ;
#115 = CARTESIAN_POINT ( 'NONE',  ( 0.000000000000000000, 0.000000000000000000, 0.000000000000000000 ) ) ;
#116 = PERSON_AND_ORGANIZATION ( #100, #135 ) ;
#117 = APPROVAL_STATUS ( 'not_yet_approved' ) ;
#118 = DATE_AND_TIME ( #85, #167 ) ;
#119 = COORDINATED_UNIVERSAL_TIME_OFFSET ( 8, 0, .AHEAD. ) ;
#120 = DESIGN_CONTEXT ( 'detailed design', #174, 'design' ) ;
#121 = PERSON_AND_ORGANIZATION_ROLE ( 'creator' ) ;
#122 = CC_DESIGN_PERSON_AND_ORGANIZATION_ASSIGNMENT ( #146, #145, ( #10 ) ) ;
#123 = APPLICATION_CONTEXT ( 'configuration controlled 3d designs of mechanical parts and assemblies' ) ;
#124 = AXIS2_PLACEMENT_3D ( 'NONE', #115, #31, #79 ) ;
#125 = ORIENTED_EDGE ( 'NONE', *, *, #40, .T. ) ;
#126 = ORIENTED_EDGE ( 'NONE', *, *, #156, .F. ) ;
#127 = LINE ( 'NONE', #59, #19 ) ;
#128 = PLANE ( 'NONE',  #49 ) ;
#129 = CARTESIAN_POINT ( 'NONE',  ( -2.743208830090071026E-15, 0.000000000000000000, 25.39999999999999858 ) ) ;
#130 = DIRECTION ( 'NONE',  ( -1.000000000000000000, -0.000000000000000000, -0.000000000000000000 ) ) ;
#131 =( NAMED_UNIT ( * ) PLANE_ANGLE_UNIT ( ) SI_UNIT ( $, .RADIAN. ) );
#132 = APPROVAL_STATUS ( 'not_yet_approved' ) ;
#133 = AXIS2_PLACEMENT_3D ( 'NONE', #39, #141, #76 ) ;
#134 = DATE_AND_TIME ( #68, #3 ) ;
#135 = ORGANIZATION ( 'UNSPECIFIED', 'UNSPECIFIED', '' ) ;
#136 = AXIS2_PLACEMENT_3D ( 'NONE', #16, #114, #42 ) ;
#137 = CC_DESIGN_DATE_AND_TIME_ASSIGNMENT ( #134, #9, ( #71 ) ) ;
#138 = DATE_TIME_ROLE ( 'classification_date' ) ;
#139 = CC_DESIGN_PERSON_AND_ORGANIZATION_ASSIGNMENT ( #35, #108, ( #89 ) ) ;
#140 = ADVANCED_FACE ( 'NONE', ( #155 ), #62, .T. ) ;
#141 = DIRECTION ( 'NONE',  ( -1.000000000000000000, -0.000000000000000000, -0.000000000000000000 ) ) ;
#142 = ORIENTED_EDGE ( 'NONE', *, *, #51, .T. ) ;
#143 = APPROVAL_PERSON_ORGANIZATION ( #161, #54, #22 ) ;
#144 = PERSON_AND_ORGANIZATION_ROLE ( 'creator' ) ;
#145 = PERSON_AND_ORGANIZATION_ROLE ( 'design_owner' ) ;
#146 = PERSON_AND_ORGANIZATION ( #100, #135 ) ;
#147 = CC_DESIGN_PERSON_AND_ORGANIZATION_ASSIGNMENT ( #103, #121, ( #89 ) ) ;
#148 = DIRECTION ( 'NONE',  ( 0.000000000000000000, 0.000000000000000000, 1.000000000000000000 ) ) ;
#149 = APPROVAL_DATE_TIME ( #86, #54 ) ;
#150 = EDGE_CURVE ( 'NONE', #88, #56, #5, .T. ) ;
#151 = CALENDAR_DATE ( 2020, 22, 12 ) ;
#152 = SHAPE_DEFINITION_REPRESENTATION ( #164, #80 ) ;
#153 = PERSON_AND_ORGANIZATION_ROLE ( 'classification_officer' ) ;
#154 = LINE ( 'NONE', #28, #66 ) ;
#155 = FACE_OUTER_BOUND ( 'NONE', #87, .T. ) ;
#156 = EDGE_CURVE ( 'NONE', #56, #88, #61, .T. ) ;
#157 = CALENDAR_DATE ( 2020, 22, 12 ) ;
#158 = PERSON_AND_ORGANIZATION ( #100, #135 ) ;
#159 = MECHANICAL_CONTEXT ( 'NONE', #123, 'mechanical' ) ;
#160 = APPROVAL ( #132, 'UNSPECIFIED' ) ;
#161 = PERSON_AND_ORGANIZATION ( #100, #135 ) ;
#162 = CIRCLE ( 'NONE', #170, 25.39999999999999858 ) ;
#163 = CALENDAR_DATE ( 2020, 22, 12 ) ;
#164 = PRODUCT_DEFINITION_SHAPE ( 'NONE', 'NONE',  #71 ) ;
#165 = DIRECTION ( 'NONE',  ( -1.000000000000000000, 0.000000000000000000, -0.000000000000000000 ) ) ;
#166 = ORIENTED_EDGE ( 'NONE', *, *, #65, .T. ) ;
#167 = LOCAL_TIME ( 12, 13, 0.000000000000000000, #70 ) ;
#168 = DIRECTION ( 'NONE',  ( -0.000000000000000000, 0.000000000000000000, 1.000000000000000000 ) ) ;
#169 = CARTESIAN_POINT ( 'NONE',  ( 2.999999999999998224, 25.39999999999999858, 0.000000000000000000 ) ) ;
#170 = AXIS2_PLACEMENT_3D ( 'NONE', #2, #50, #93 ) ;
#171 = FACE_OUTER_BOUND ( 'NONE', #26, .T. ) ;
#172 = LOCAL_TIME ( 12, 13, 0.000000000000000000, #98 ) ;
#173 = CC_DESIGN_PERSON_AND_ORGANIZATION_ASSIGNMENT ( #158, #144, ( #71 ) ) ;
#174 = APPLICATION_CONTEXT ( 'configuration controlled 3d designs of mechanical parts and assemblies' ) ;
#175 = APPROVAL_PERSON_ORGANIZATION ( #116, #160, #20 ) ;
ENDSEC;
END-ISO-10303-21;
